Intro :
G C9 Dsus4
|-------3--------------3--------------3------------3------|
|----------3-------------3--------------3------------3----|
|-------------0------------0--------------0-----2------2--|
|---0--------------0--------------2-----------0-----------|
|------------------------------3--------------------------|
|-3--------------3----------------------------------------|


Em Dsus4 C9 G
|------3------------3-------------3------------3----------|
|--------3------------3-------------3------------3--------|
|----------0-----2------2-------------0------------0------|
|---2----------0---------------2------------0-------------|
|----------------------------3----------------------------|
|-0---------------------------------------3---------------|

Em G Em G Em Dsus4
|------3------------3------------3-----------3------------3---------3------|
|--------3------------3------------3-----------3------------3---------3----|
|----------0------------0------------0-----------0------------0---------2--|
|---2------------0------------2-----------0------------2----------0--------|
|--------------------------------------------------------------------------|
|-0------------3------------0-----------3------------0---------------------|





Verse 1 :
G C9 Dsus4 G
Another turning point a fork stuck in the road
G C9 Dsus4 G
Time grabs you by the wrist directs you where to go
Em Dsus4 C9 G
So make the best of these days and don't ask why
Em Dsus4 C9 G
It's not a question but a lesson learned in time


Chorus
Em G Em G
It's something unpredictable in the end it's right
Em Dsus4 G (where verse riff cuts back in)
I hope you have the time of your life. (Start struming G C Dsus4)


Verse 2 :
G C9 Dsus4 G
So take the photographs and stillframes in your mind
G C9 Dsus4 G
Hang it on a shelf;
(couldn't get this line, fix it if you know it)
it could've been good times

Em Dsus4 C9 G
Tatoos and memories and asking on trial
Em Dsus4 C9 G
For what it's worth it was worth all the while

It's something unpredictable
but in the end it's right.
I hope you had the time of your life.

(music break)

It's something unpredictable
but in the end it's right.
I hope you had the time of your life.

It's something unpredictable
but in the end it's right.
I hope you had the time of your life.
---


Notes : This song reminds so much of high school. ...but this song might possibly keep me going forward. =') ROCKS!! Green Day ^^

These icons link to social bookmarking sites where readers can share and discover new web pages.
  • Digg
  • Sphinn
  • del.icio.us
  • Facebook
  • Mixx
  • Google
  • Furl
  • Reddit
  • Spurl
  • StumbleUpon
  • Technorati