Intro:
C F G (2x)

C C/B
there's a moment in time
Am G F
and it's stuck in my mind
(F) G
way back when we were just kids

C C/B
cuz your eyes told the tale
Am G F
of an act of betrayal
(F) G
i knew that somebody did
F G
oh waves of time
C C/B Am G
seem to wash away the scenes of our crimes
F G
for you this never ends

C
can you stay strong
Am
can you go on
Dm F' G'
Kristy are you doing okay
C
a rose that won't bloom
Am
winters kept you
Dm F G
don't waste your whole life trying to get back what was taken away

C F G

C C/B Am G F
though the marks on your dress have been neatly repressed
(F) G
i knew that something was wrong
C C/B
and i shoulda spoke out
Am G
and i'm so sorry now
F G
i didn't know cuz we were so young
F G C C/B Am G
oh clouds of time seem to rain on innocence left behind
F G
and never goes away

C
can you stay strong
Am
can you go on
Dm F' G'
Kristy are you doing okay
C
a rose that won't bloom
Am
winters kept you
Dm F G
don't waste your whole life trying to get back what was taken away

C F G (2x)

C C/B Am G F G
e|-----------------------------------------------------------------------|
B|--13----13----12----12-----13----13----12----12------------------------|
G|-----12----12----12----12-----14----14----12----12--10~----9--7--9--7--|
D|-----------------------------------------------------------------------|
A|-----------------------------------------------------------------------|
E|-----------------------------------------------------------------------|

C C/B Am G F G
e|----------------------------------------------------13~---12-10-12-15---|
B|-/13----13----12----12-----13----13----12----12-------------------------|
G|-----12----12----12----12-----14----14----12----12----------------------|
D|------------------------------------------------------------------------|
A|------------------------------------------------------------------------|
E|------------------------------------------------------------------------|

F G C C/B Am G
oh clouds of time seem to rain on innocence left behind
F
and never goes away
G
and never goes away

C
can you stay strong
Am
can you go on
Dm F' G'
Kristy are you doing okay
C
a rose that won't bloom
Am
winters kept you
Dm F G
don't waste your whole life trying to get back what was taken away

C C/B Am G
e|----------------------------------------------------|
B|--13----13----12----12-----13----13----12----12-----|
G|-----12----12----12----12-----14----14----12----12\-|
D|----------------------------------------------------|
A|----------------------------------------------------|
E|----------------------------------------------------|
Dm F G
don't waste your whole life trying to get back what was taken away

C F G (2x)
C

---

These icons link to social bookmarking sites where readers can share and discover new web pages.
  • Digg
  • Sphinn
  • del.icio.us
  • Facebook
  • Mixx
  • Google
  • Furl
  • Reddit
  • Spurl
  • StumbleUpon
  • Technorati